Označite pesmu Preuzmite .pdf
Akordi u boji
Promena tonaliteta
AA#B ABH

Toma Zdravković

Za Ljiljanu

 Dm               G#7                               Dm
-|----------------|----------------|----------------|----------------|
-|----------------|----------------|----------------|----------------|
-|--000-0-2-0-----|-------------0--|--------0-------|----0-------020-|
-|------------4-2-|1-124-----124-42|1-444-4---4-2-1-|2-24------24---4|
-|----------------|----------------|----------------|----------------|
-|----------------|----------------|----------------|----------------|
                   Gm               G#7              Dm
-|----------------|----------------|----------------|----------------|
-|----------------|---01------0131-|----------------|----------------|
-|--000-0-2-0-----|2-2-----2-2----2|--444-242-020---|----------------|
-|2-----------4-2-|----------------|--------------4-|2---------------|
-|----------------|----------------|----------------|----------------|
-|----------------|----------------|----------------|----------------|

Dm                    prelaz I Gm                   prelaz II
Ne kosite rosnu travu          ne lomite mladu granu
C7                    F
ostavite cvetna polja ostavite cvetna polja
C                     F prelaz III
nek  cvetaju za Ljiljanu,
C7                     F
ostavite cvetna polja, ostavite cvetna polja
G#7                   Dm prelaz Iv
nek  cvetaju za Ljiljanu.

 
B                D7 Gm  C7                    F
Ljubavi su mnoge bile,  kao vatra, mladost planu
Gm            Dm        C7                  F C F D7
sve sto osta, od zivota ja bih dao za Ljiljanu,
Gm            Dm        C          G#m      Dm
sve sto osta, od zivota ja bih dao za Ljiljanu.

intro

Ne pevajte pesme njene ne dirajte staru ranu,           
pet godina ja negujem pet godina ja jos cuvam      
jednu ruzu za Ljiljanu,pet godina ja jos cuvam     
pet godina ja negujem jednu ruzu za Ljiljanu.     
                            
refren	intro		  

Ne pevajte pesme njene ne dirajte staru ranu,             
pet godina ja negujem pet godina ja jos cuvam     
jednu ruzu za Ljiljanu,pet godina ja jos cuvam       
pet godina ja negujem jednu ruzu za Ljiljanu.     
                           
refren 	
 
prelaz I    prelaz II    prelaz III        prelaz Iv

---------   -0232032-    ----------023     ----------------
-0131031-   ---------    -0-1-3-323---     ------------0---
---------   ---------    -------------     --------0-2---0-
---------   ---------    -------------     -212-4----------
---------   ---------    -------------     ----------------
---------   ---------    -------------     ----------------

<< Povratak