Označite pesmu Preuzmite .pdf
Akordi u boji
Promena tonaliteta
AA#B ABH

Zdravko Čolić

Zvao sam je Emili

           zvao sam je emili

   E
E||--12-10-------10----------------------------------|
B||--------13-12----13-12-10-13-12-10----12-10-------|
G||-----------------------------------12-------12-10-|
D||--------------------------------------------------|
A||--------------------------------------------------|
E||--------------------------------------------------|

                                                    E  Am               
E||--------------------------------------------------------|
B||--10------------------------------------------------10--|
G||-----12-10-9-12-10-9----10-9-------9----------9--9------|
D||---------------------12------12-10---12-10-9------------|
A||--------------------------------------------------------|
E||--------------------------------------------------------|


Am
Poci cu u sume da je opet trazim
B                             Am
uz tisinu rijeke da je mirno sanjam.

E||--------------12-13-15-17-17--|
B||-----12-13-15-----------------|
G||--14--------------------------|
D||------------------------------|
A||------------------------------|
E||------------------------------|

predref.

   E
Aaaa
   Am
aaaa
H C Dm E
A a a  a

ref.

Zvao sam je Emili
Am     Em
U moj je san ko u svoj usla dom,
    Am
zbog nje se dan pretvorio u noc,
                             G
i zvijezde sve poludele zbog nje,
               C
kao kise prolecne,
E
zvao sam je Emili.

<< Povratak