Označite pesmu Preuzmite .pdf
Akordi u boji
Promena tonaliteta
AA#B ABH

Dino Merlin

Ja potpuno trijezan umirem

          Am                         F 
Šta sve o tebi sirota moja nisu pričali
          Am                             F 
To više ne bi ni pas s maslom mog’o pojesti
          Am          F            Am           F
Bila si da si nakon svega u naše snove dovela njega
        Am             G                    Am     
Bila si da ti se baš dopada način na koji propadam.

Šta sve o tebi sirota moja i sad govore
To više nije ni stvar jala ni ljubomore
Ma to je nešto više od toga, nekome lijek a nekom droga
Ja znam, imatu malo istine a malo sudbine.

Ref.: X2
       Am       F
A ne misli da pijem
Dm          Am
Ja to ne smijem
           F           G
Ja potpuno trijezan umirem.

       Am       F
A ne misli da pijem
Dm          Am       
Ja to ne smijem
           F          Am
Ja potpuno svjestan umirem.

Solo..

Šta sve o tebi sirota moja i sad govore
To više nije ni stvar jala ni ljubomore
Ma to je nešto više od toga, nekome lijek a nekom droga
Ja znam, ima tu malo istine a malo sudbine.

Ref.: x2
Solo...

e|-----------0-1-0-----------0h1-0---------------------
B|-----0-1-3-------3-1-0-1-3-------3-----------------
G|-2-2----------------------------------------------------
D|---------------------------------------------------------
A|----------------------------------------------------------
E|----------------------------------------------------------

e|------------0-1-0-----------------------------------------
B|------0-1-3-------3-1-0-0------------------------------
G|-2-2----------------------2-2----------------------------
D|------------------------------------------------------------
A|------------------------------------------------------------
E|------------------------------------------------------------

<< Povratak