Označite pesmu Preuzmite .pdf
Akordi u boji
Promena tonaliteta
AA#B ABH

Divlje jagode

Moj dilbere

figure 1 : intro riff
   A5           G5
E|-------------------------------------------|
B|-------------------------------------------|
D|-------------------------------------------|
G|-------------------------------------------|
A|-7--x-x-7-7---5--7-----7-x-x--7-7--7-7--5--|
E|-5--x-x-5-5---3--5-----5-x-x--5-5--5-5--3--|


figure 2: keyboard intro

E|-----------------------------------------
B|-----------------------------------------
D|---------14----14-12-10-9----10--9^10^9--
G|---12-14------------------12-------------
A|12---------------------------------------
E|-----------------------------------------


fugure 1
Moj Dilbere,
D      C   G
kud se seces
figure 1
Aj sto i mene
G   A  ( bass A#, C, A#)
ne povedes.

Povedi me
u carsiju
Aj pa me prodaj
pazardziji.

Uzmi za me
oku zlata
pa pozlati
dvoru vrata.


figure 3: solo
prva dva puta  "muted"
--------------------------------------------------------------------
-5--6-5-----------------------------5--6-5--------------------------
--------7--7-7-6--------6-----6-7----------7--7-7-6--------6--------
------------------8-7-8----8-------------------------8-7-8---8-7-5-7
--------------------------------------------------------------------
--------------------------------------------------------------------

figure 4: outro
---------------------------------------------|
---------------------------------------------|
---^-------------7--5------^------------5--4-| X2
-5-/-7--7-7-7-7----------5-/-7--7-7-7-7------|
---------------------------------------------|
-3-/-5--5-5-5-5----------3-/-5--5-5-5-5------|

/ = slide
x = priguseno desnom rukom.Lijeva ruka je jos uvijek
na zicama u ovom slucaju iznad petog polja

<< Povratak