Označite pesmu Preuzmite .pdf
Akordi u boji
Promena tonaliteta
AA#B ABH

Ljuba Aličić - Mala
Ljuba Alicic - Mala

Transkripcija: Johnny035, Čivija & Sat-Ok
25.06.2012.

Album: “Ne pitaj me, majko“ (1992.) - Jugodisk
Muzika, tekst & aranzman: Zoran Starcevic

Uvod:
  Eb    G7     cm             F7             B*  G7
    ___        _____ ___ ___    ___ ___ ___      ___
E|------------|--------------|--------------|-----------|
H|--8-8-6--6--|6-8-6-6-------|--6-6-6-8-6---|----6------|
G|7-----------|--------8-8-7-|5-----------8-|7-----8-7--|
D|------------|--------------|--------------|-----------|
A|------------|--------------|--------------|-----------|
E|------------|--------------|--------------|-----------|

     cm             gm    Eb       A7             D           D   F7
                                                  ________    __________
       ___ ___ ___  ___   ___ ___  _____ ___ ___ |   1.   |  |     2.   |      
E||-|--------------|--------------|--------------|--------|-||----------|
H||-|--6-----------|--------------|--------------|--------|-||----------|
G||.|5---8-8-7-7-6-|7-8-7-5-------|------6-------|--------|.||-------5--|
D||.|--------------|--------8-8-7-|5-7-8---8-8-7-|7-------|.||7---8-----|
A||-|--------------|--------------|--------------|--------|-||----------|
E||-|--------------|--------------|--------------|--------|-||----------|

* - (B je snizeno H)

Napomena: Ovo je generalni prikaz melodije. 
Po potrebi ubaciti ukrase na pojedinim mestima.

B                F7     B  G7
Ti ne cujes srce kako zove,
cm        gm   A7     D
Ne osecas reci kako bole.

Ref. (2x)
Eb G7          cm           D7
Mala, htelo bi srce da ti kaze
gm         cm         A7  D7 gm  B7 (gm)
Samo tvoje vrele usne oci traze.

B                F7     B  G7
Ti ne vidis ruke kako mole,
cm         gm    A7      D
Da te grle uvek, da te vole.

Ref. (2x)
Eb G7          cm           D7
Mala, htelo bi srce da ti kaze
gm         cm         A7  D7 gm  B7 (gm)
Samo tvoje vrele usne oci traze.

B                F7       B  G7
Ti ne vidis suzu sto me gusi,
cm        gm   A7     D
Ne osecas kako je u dusi.

Ref. (2x)
Eb G7          cm           D7
Mala, htelo bi srce da ti kaze
gm         cm         A7  D7 gm  B7 (gm)
Samo tvoje vrele usne oci traze.

Kraj:
  cm    gm      D7    gm
  _____    ___  _____
E|-------------|-----------|
H|-------------|-----------|
G|5------------|-----------|
D|--8-7-5--8-7-|5-8-7-5----|
A|-------------|-----------|
E|-------------|-----------|

<< Povratak