Označite pesmu Preuzmite .pdf
Akordi u boji
Promena tonaliteta
AA#B ABH

Sinan Sakić - Ne Traži Je, Sine

Sinan Sakić

Ne Traži Je, Sine

Sinan Sakic - Ne Trazi Je, Sine

Transkripcija: Johnny035
29.07.2016.

Album: "Reci Sve Želje" (1985.) - PGP-RTB
Muzika: Miodrag M. Ilic - Mile Bas
Tekst: Stevica Spasic
Aranzman: Sava Bojic

Uvod:
  F#m           Hm   D           A     G     F#m         H
                          _____               ____ ____
E|-------------|----------------|------------|----------------|
H|-------------|----------------|------------|----------------|
G|------11-----|9---------------|------------|----------------|
D|11-----------|-----12---12/14-|12----11----|--------11-9----|
A|-------------|----------------|------------|9-11-12---------|
E|-------------|----------------|------------|----------------|

  D     G           F#m       F#m

                    _________1.________
             _____ |___________        |
E|-----------------|---------|---------|-||
H|-----------------|---------|---------|-||
G|-----------------|---------|---------|.||
D|-----------------|---------|---------|.||
A|12----10---10/12-|9--------|9--------|-||
E|-----------------|---------|---------|-||

  F#m       F#m

  _________2._________
 |                    |
E|---------|14--------|
H|---------|----------|
G|---------|----------|
D|---------|----------|
A|9--------|----------|
E|---------|----------|

F#m
Pokajah se, podjoh da je vidim
   Hm   E A G F#m        E   F#m
sa namerom        za pocetak novi.
F#m
Tad mi njena stara majka rece:
      Hm   E   A E              F#m  E F#m E
Ja te mo...lim,    vise je ne zovi.

Ref.
F#m                Hm   D     A
Ne trazi je, sine, rece majka njena.
           Hm    D        G      F#m
Ne diraj u njenu zapocetu srecu.
                  Hm    D      A
Jer ona je, sine, nocas isprosena.
          Hm    (N.C.)          F#m
Ne donosi jesen njenom prolecu.

Sa prozora gledala me ona
i rukama skrivala je lice.
Shvatila je valjda istog trena
da je greskom dala drugom srce.

Ref.
Ne trazi je, sine, rece majka njena.
Ne diraj u njenu zapocetu srecu.
Jer ona je, sine, nocas isprosena.
Ne donosi jesen njenom prolecu.

Okrenuh se, podjoh svojoj kuci,
svestan da sam igru izgubio,
da ostajem bez voljenog bica
s kim sam svoje snove snio.

Ref.
Ne trazi je, sine, rece majka njena.
Ne diraj u njenu zapocetu srecu.
Jer ona je, sine, nocas isprosena.
Ne donosi jesen njenom prolecu.

Kraj: 
  F#m                      F#m    Hm C#m  F#m
      _______     _______
         ____        ____    
E|------------------------|--------------|----------|
H|------------------------|--------------|----------|
G|11--11-9--------11-9----|--------------|11--------|
D|---------12-11-------12-|11-----9--11--|----------|
A|------------------------|----9---------|----------|
E|------------------------|--------------|----------|

<< Povratak