Pesmarica
Akordi za gitaru



Označite pesmu Preuzmite .pdf
Akordi u boji
Promena tonaliteta
AA#B ABH

bjelo dugme

te noci

[[[ C a p o   3 r d * (1. ton = Cm) ]]]


[Uvod]:

e|----------------------|--------------------|
B|----------------------|---------6----------|
G|--5-7-8-7-5-----------|-7h8-7s8---7b8----5-|
D|-5----------8--8------|--------------------|
A|------------------8-8-|--------------------|
E|----------------------|--------------------|


e|-------------------------------------------|
B|-------------------------------------------|
G|--5-7-8-5--------3s5-3---------------------|
D|-5--------------------5---3-3s5------------|
A|--------------------------------6---3------|
E|-------------------------------------------|


[Prehod]:

   F                              E7       Am
e|-------------------------------------------------|
B|-------------------------------------------------|
G|------5--8--5----3/5-------3---------------------|
D|-6-8--------------------------5--3--3b-----------|
A|---------------------------------------6--3------|
E|-------------------------------------------------|


F#m                    D         F#m        D 
Te noći kad me stignu potjere, kurve sudbine
F#m               D     F#m           D 
i kada u�'em iza ovoga, kao kod rodbine,
(F) E     F#m E  D   E     F#m
kao zvijezda        padalica,
         E       AM    E  D    C#7    D                  
k'o neki lijepi kaput sa       dva lica...


[Prelaz]


F#m                      D       F#m        D 
Te noći zebšćeš na tvom prozoru umornih očiju,
F#m                 D      F#m        D 
teško je čekati na vozove koji tumaraju.
(F) E     F#m E  D   E     F#m
To je teško,        F#m lako je
          E     F#m    E  D   C#      F#m
živjeti i umrijeti,          pile moje...


[Refren]:

F#m              E  A   E  A        B            E  B E 
Te noći... Te noći kad umrem, kada odem, kad me ne bude,
A  E A        B          E  B E      
samo će dvije žene da se probude.
         C#m   A            B    E                
Jedna je moja mati, ona će plakati,
         C#m  F#m  A         B  E 
druga si ti, ti, ti ćeš me kleti...


[Solo]:
                        F#m D  F#m
e|---------------------------/11----10--11--13----10----8---|
B|-----------8----------------------------------------------|
G|--------8-----10--8---------------------------------------|
D|--8/10---------------10\----------------------------------|
A|----------------------------------------------------------|
E|----------------------------------------------------------|

                             D          F#m                  D 
e|---------------------------------------11--10--11--13--10--20--|
B|---11--9--8----6/8\6-4/6\4-------------------------------------|
G|---------------------------5/8\5\-3\---------------------------|
D|---------------------------------------------------------------|
A|---------------------------------------------------------------|
E|---------------------------------------------------------------|


F#m                      D       F#m        D 
Te noći zebšćeš na tvom prozoru umornih očiju,
F#m                 D      F#m        D 
teško je čekati na vozove koji tumaraju.
(F) E     F#m E  D   E     F#m
To je teško,        F#m lako je
          E     F#m    E  D   C#      F#m
živjeti i umrijeti,          pile moje...


[Refren]:

F#m              E  A   E  A        B            E  B E 
Te noći... Te noći kad umrem, kada odem, kad me ne bude,
A  E A        B          E  B E      
samo će dvije žene da se probude.
         C#m   A            B    E                
Jedna je moja mati, ona će plakati,
         C#m  F#m  A         B  E 
druga si ti, ti, ti ćeš me kleti...


[Konec]:
   A         B  E 
...a ti ćeš me kleti...

<< Povratak