Označite pesmu Preuzmite .pdf
Akordi u boji
Promena tonaliteta
AA#B ABH

Hari Mata Hari

Prsten i zlatni lanac

Transkripcija:Mr.Z  mr.z@mindless.com
Home         :http://2akordi.net/


Am
Sve se brzo desilo
      Dm           Am
ko' u filmu starom ljubavnom

srce mi se slomilo
    E               Am
ko' grom da me je pogodio

PRELAZ: Am Dm Am E Am


Imala je korak ko' u snu
a u ruci torbu pretesku
ponudih joj osmijeh svoj
i ovu ruku vitesku.

    E              Am
Jer slucajno te sretoh
    E           Am
al' namjerno zavolh
Dm                    E
i bas necu da te prebolim


C
Prsten i zlatni lanac
G    E
dat' ce ti bosanac
Am         Dm          E
samo da te jednom poljubi
        
***VERZIJA 2***
Transkripcija: zvornicanin.
Info         : Uvod s gitarom umjesto violine.


E|----------2-2------------------0-2-5-5-7-5-2--7-5-2--5s6-3-6-5----
H|--------2-----3-2-0--3-2-0---3------------------------------------
G|--0-2-3-----------------------------------------------------------
D|------------------------------------------------------------------
A|------------------------------------------------------------------
E|------------------------------------------------------------------

E|--5s6-3-6-5--55-6-5--3-1-0---------|
H|---------------------------3-------|
G|-----------------------------------|  2X
D|-----------------------------------|
A|-----------------------------------|
E|-----------------------------------|

<< Povratak