Pesmarica
Akordi za gitaru



Označite pesmu Preuzmite .pdf
Akordi u boji
Promena tonaliteta
AA#B ABH

Dža Ili Bu

Ustani i Kreni

Transkripcija: Milan Pavlović (paparaco@EUnet.yu)
Home         : http://www.yutabs.f2s.com


  Uvod :
E|7-------------8-|----------5-----|----2-----------|--------0-------|
H|8-------------8-|--8---------6\--|----3-----------|----------3-----|
G|7---------------|------7\5-------|2---2-----------|----0-------0---|
D|0---------------|----0-----------|0---------------|0---------------|
A|----------------|----------------|----------------|--3-------------|
E|----------------|----------------|----------------|----------------|

  Strofa :
E|----------------|----------------|
H|----------------|-------13-------|
G|--------------10|----10-12b13r12-|
D|--------------10|--12------------|
A|12--12--1212----|----------------|
E|10--10--1010----|----------------|

  Prelaz :
E|----------------|----------------|----------------|----------------|
H|----------------|----------------|----------------|----------------|
G|----------------|----------------|----------------|----------------|
D|------7---------|(7)-------------|----------------|----------------|
A|3-3-3-5---------|(5)-------------|3-3-3-5---------|(5)-------------|
E|1-1-1-----------|----------------|1-1-1-3---------|(3)-------------|
            Jer napolju je sunce                i previše je ljudi

E|----------------|----------------|----------------|------------------------|
H|----------------|----------------|----------------|------------------------|
G|----------------|----------------|----------------|------------------------|
D|------7---------|(7)-------------|10101012--------|(12)----10--------------|
A|3-3-3-5---------|(5)-------------|8-8-8-10--------|(10)----8---------------|
E|1-1-1-----------|----------------|----------------|------------------------|
            Jer napolju je svetlost             ona koja     budi

  Refren :
E|----------------|----------------|----------------|----------------|
H|----------------|----------------|----------------|----------------|
G|2-----2---------|------------2---|2-----2---------|------------2---|
D|3p0---0---------|------7-----3p0-|3p0---0---------|------------3p0-|
A|----3---------3-|------5---------|----3---------3-|------5---------|
E|--------------1-|----------------|--------------1-|------3---------|

E|----------------|----------------|----------------|----------------|
H|----------------|----------------|----------------|----------------|
G|2-----2---------|----------------|----------------|----------------|
D|3p0---0---------|------7---------|10--10--1010--12|--1212--12--12--|
A|----3---------3-|------5---------|8---8---8-8---10|--1010--10--10--|
E|--------------1-|----------------|----------------|----------------|

Kad ujutru ustaneš
Ti protokol znaš
Tad zamračiš prozore
I započneš dan

Zaključan u sobi
I najčešće sam
Zavezan si strahom
Da napustiš stan

Jer napolju je sunce
I previše je ljudi
Jer napolju je svetlost
Ona koja budi

Ustani i kreni sada
Život je tek pred tobom
Bitka koju moraš dobiti
Je bitka sa samim sobom

Tvoj život je apatija
Što vrti se u krug
Al' upamti dobro
Život nije dug

Ako se ne probudiš
I podigneš glavu
Bićeš leš kad shvatiš
Da bio sam u pravu

Jer napolju te čeka
Nepoznati put
I slučajni prolaznik
Tad postaće ti drug

<< Povratak