Označite pesmu Preuzmite .pdf
Akordi u boji
Promena tonaliteta
AA#B ABH

Zvonko Bogdan - Vec odavno spremam svog mrkova

Zvonko Bogdan

Vec odavno spremam svog mrkova

COPI!!



Dm         Gm  Dm  A7       Dm C7 F             B F   C7     F  F7
Vec odavno spremam svog mrkova    da se prodjem kasom od miline,
B   Ddim   F  D7  Gm           Dm  A7    Dm         Gm Dm  C7      F  F7
da obidjem staze, staze svog detinjstva, za salasom zeelja da me mine,
B   Ddim   F  D7  Gm           Dm  A7    Dm         Gm Dm  A7      Dm
da obidjem staze, staze svog detinjstva, za salasom zeelja da me mine.



    Dm        Gm  Dm A7       Dm C7 F            B F   C7      F  F7
Al' rekose mi pre niikol'ko dana    da je srusen oonaj salas mali,
B    Ddim F  D7  Gm          Dm   A7  Dm          Gm Dm C7      F  F7
nema vise starog cardaka, ni djer'ma, ni debelog 'laada od bagrema,
B    Ddim F  D7  Gm          Dm   A7  Dm          Gm Dm A7      Dm
nema vise starog cardaka, ni djer'ma, ni debelog 'laada od bagrema.


          F         C7        F                   C7       F      F7
REFREN:  
          Necu vise ici na tu stranu, jer ne mogu suze oku skriti,
          B  Ddim   F D7  Gm       Dm A7  Dm          Gm Dm C7     F  F7
          ili moram, tugo, okrenuti glavu, il' plakati iiili se napiti,
          B   Ddim   F D7  Gm       Dm A7  Dm          Gm Dm A7     Dm
          ili moram, tugo, okrenuti glavu, il' plakati iiili se napiti.



  F            C7                 F 
                        _____     _______
E|------------|---5--6-----|---6--5----|5--------|
H|-----6-5-6--|8--------8--|8----------|---------|
G|5-----------|------------|-----------|---------|
D|------------|------------|-----------|---------|
A|------------|------------|-----------|---------|
E|------------|------------|-----------|---------|

  F            C7                 F             F7
                        _____     _______
E|------------|---5--6-----|---6--5----|5----6--7--|
H|-----6-5-6--|8--------8--|8----------|-----------|
G|5-----------|------------|-----------|-----------|
D|------------|------------|-----------|-----------|
A|------------|------------|-----------|-----------|
E|------------|------------|-----------|-----------|

  B     Edim     F     D7     Gm               Dm    A7
E|10----12--10--|------10----|---------10-----|-----------|
H|--------------|13----------|11----13----11--|10----8----|
G|--------------|------------|----------------|-----------|
D|--------------|------------|----------------|-----------|
A|--------------|------------|----------------|-----------|
E|--------------|------------|----------------|-----------|

  Dm           Gm   Dm    A7         Dm  
E|------------|6----5----|----------|---------|
H|-----5-6----|----------|8--6--5---|---------|
G|7--------7--|----------|----------|7--------|
D|------------|----------|----------|---------|
A|------------|----------|----------|---------|
E|------------|----------|----------|---------|


Dm           Gm Dm  A7     Dm C7 F         B  F  C7    F  F7
Sve je manje dobrih tamburasa,   fijakera, snasa i salasa,
B      Ddim  F  D7   Gm         Dm A7  Dm          Gm Dm C7      F  F7
sve je manje koonja, konja koji juure, a, u stvari niikuuda ne zure,
B      Ddim  F  D7   Gm         Dm A7  Dm          Gm Dm A7      Dm
sve je manje koonja, konja koji juure, a, u stvari niikuuda ne zure.



Dm             Gm Dm A7       Dm C7 F         B F  C7      F   F7
Nek' vrag nosi moje  snove puste,   divojacke duge kose, guste,
B         Ddim  F D7  Gm         Dm A7  Dm        Gm Dm  C7    F  F7
nek' vrag nosi, tugo, dobre tamburaase, fijakere, piisme i salase,
B         Ddim  F D7  Gm         Dm A7  Dm        Gm Dm  A7    Dm
nek' vrag nosi, tugo, dobre tamburaase, fijakere, piisme i salase.


          F         C7        F                   C7       F      F7
REFREN:   Necu vise ici na tu stranu, jer ne mogu suze oku skriti,
          B   Ddim   F D7  Gm       Dm A7  Dm          Gm Dm C7     F  F7
          ili moram, tugo, okrenuti glavu, il' plakati iiili se napiti,
          B   Ddim   F D7  Gm       Dm A7  Dm          Gm Dm A7     Dm
          ili moram, tugo, okrenuti glavu, il' plakati iiili se napiti.

<< Povratak