Pesmarica
Akordi za gitaru



Označite pesmu Preuzmite .pdf
Akordi u boji
Promena tonaliteta
AA#B ABH

Ritam Nereda

10 Godina

Transkripcija: Milan Pavlovic (paparaco@EUnet.yu)
Home         : http://www.yutabs.f2s.com


Napomena: šesta žica je preštimovana

  Tema:
E|----------------|----------------|
H|----------------|----------------|
G|----7-----------|5-----------5h7-|
D|----------7-----|------5---------|
A|----------------|----------------|
D|0-0---0-0---0-0-|--0-0---0-0-----|

  Strofa:
E|----------------|----------------|----------------|----------------|
H|----------------|----------------|----------------|----------------|
G|----------------|----------------|----------------|----------------|
D|----7-----7---7-|----7-----7---7-|----7-----7---7-|----7-----7---7-|
A|----5-----5---5-|----5-----5---5-|----5-----5---5-|----5-----5---5-|
D|0-0---0-0---0---|0-0---0-0---0---|0-0---0-0---0---|0-0---0-0---0---|

E|----------------|----------------|----------------|----------------|
H|----------------|----------------|----------------|----------------|
G|----------------|----------------|----------------|----------------|
D|----7-----7---7-|----7-----7---7-|----7-----7---7-|----7-----------|
A|----5-----5---5-|----5-----5---5-|----5-----5---5-|----5-----------|
D|0-0---0-0---0---|0-0---0-0---0---|0-0---0-0---0---|0-0---0-3b4r3b4-|

  Refren:
           D5
Ne nije me strah,
        B5
Nije me strah,
       C5    A5      D5
Suviše znam, nije me strah
          B5        C5  A5  D5
Da glasno kažem ono što osećam
          B5    C5   A5   D5
I kada me boli, boli ostajem
         B5             F5
Duboko u meni, duboko u tebi
       D5 (u drugom refrenu D#5)
10 godina

  Prelaz:
E|----------------|----------------|----------------|----------------|
H|----------------|----------------|----------------|----------------|
G|----------------|----------------|----------------|----------------|
D|----------------|----------------|----------------|----------------|
A|0-0---0-0-0-0-0-|0-0---0-0-0-0-0-|1-1---1-1-1-1-1-|1-1---1-1-1-1-1-|
D|0-0---0-0-0-0-0-|0-0---0-0-0-0-0-|1-1---1-1-1-1-1-|1-1---1-1-1-1-1-|

  Kraj prelaza: F5

  Korišćeni akordi:
D5  -X75XXX
B5  -88XXXX
C5  -10 10 X X X X
A5  -77XXXX
F5  -33XXXX
D#5 -11XXXX

<< Povratak