Označite pesmu Preuzmite .pdf
Akordi u boji
Promena tonaliteta
AA#B ABH

Bajaga - Tišina

Bajaga

Tišina

Moze se svirati na dva nacina 

1 Nacin:
    Am           C        G         G
e-------------------------3---------3--------
B-0-----------3------------2---------2-------
G---2----2-----2-----2------0---------0------
D----2--2-------0---0-----------0----------0-
A-----1-----------1------------0----------0--
E-----------------------------3----------3----

2 Nacin:

Trzanjem 
Ritam: Ex-yu (DDGGDG)
D = Dole
G = Gore



Am               
Mrak se skupio u kap
C                           G  G          
rano jutro kao slap ulazi u sobu
Am               
da l' si ikada pitala
 C                               G  G
tamne senke zidova ujutro gde odu

Am               
Oci su ti sklopljene
 C
usne su ti umorne
 G                G
ne ljubi me njima

Am                  
nisu cvorci pevali dok je 
C                      G    G
iznad krovova svirala tisina

Solo

Ref.

Am                 
Hajde, Boze, budi drug 
 C                        G      G
pa okreni jedan krug unazad planetu
Am                  
noc je kratko trajala
  C                      G   G
a nama je trebala najduza na svetu


 Am
U mom oku samo hlad
C                                     G  G
u mom srcu samo stud, inje i prasina
Am                       
nisu cvorci pevali dok je 
C                    G G
iznad krovova svirala tisina

Am
U cik zore zvizdi voz
C                 
njime odlazim u OZ
G       G
necu da se vratim
Am                             C
sto god tebi napisem pocepam i obrisem
G   G
al' ti moras znati

Am                          C
Nisi se probudila, zato nisi videla
G  G
igrale su sene
Am                             C
nek te dobri duhovi i kraljevski orlovi
G     G
cuvaju od mene

Ref.

Am                 
Hajde, Boze, budi drug 
 C                        G      G
pa okreni jedan krug unazad planetu
Am                  
noc je kratko trajala
  C                      G   G
a nama je trebala najduza na svetu


Am
U mom oku samo hlad
C                                     G  G
u mom srcu samo stud, inje i prasina
Am                       
nisu cvorci pevali dok je 
C                    G G
iznad krovova svirala tisina


Solo:
e----------------------------------------
B----------------------------------------
G--5>7-5-7---------------9-7-5-----------
D---------4-5-4-5-7>9-7-----------------
A----------------------------------------
E----------------------------------------


e-----------------------------------------
B-----------------------------------------
G--5-5>7-5-7------------------------------
D-----------4-5-4-5-7>9-7-----------------
A------------------------8>10-8-10-8-8>10
E----------------------------------------


e----------------------------------------
B----------------------------------------
G---------------9-7-5------------------5-
D-5-5-4-5-7>9-7-----------7>9--9>7-5-4---
A-----------------------8----8----------
E---------------------5------------------


<< Povratak