Označite pesmu Preuzmite .pdf
Akordi u boji
Promena tonaliteta
AA#B ABH

Toše Proeski

Jos uvek sanjam da smo zajedno

Fm             Bm               
Od kad te nema ne mogu budan biti
D#                 G#
jer sve sto zelim u tome budes i ti
Fm              Bm
pa budan sanjam da snovi duze traju
C                   Fm
u svakoj prici samo ti si mi na kraju



F7              Bm
Ti si pocetak i kraj
D#              G#
ti si i tama i sjaj
Fm            Bm
svaku mi nadu delis po pola
C               Fm
dajes mi mrvice sa svoga stola
  C                    Fm
i znam bez tebe ostacu sam


Refren:

Fm                      Bm
Jos uvjek sanjam da smo zajedno
D#                   G#
ko nekad davno ti i ja
Fm                    Bm
al jutro svaki put mi pokvari
C                    Fm
tu slatku prevaru iz sna

Fm                      Bm
Jos uvjek sanjam da smo zajedno
D#                   G#
i da je sve ko prvi put
Fm                 Bm
al jutro nosi golu istinu
C              Fm
da sve je bilo uzalud


Solo 2:

-----------------------------------------------------------------
-13-13-13-----------------13-13-13-------------------------------
----------13-12-13-15--------------13-12/11----------------------
---------------------------------------------13-12-11-10/11/10---
-----------------------------------------------------------------
-----------------------------------------------------------------

-----------------------------------------------------------------
-13-13-13--------------------------------------------------------
----------13-12-13-15---17-18-17---13/14/13----------------------
-----------------------------------------------------------------
-----------------------------------------------------------------
-----------------------------------------------------------------


F#m             Hm               
Od kad te nema nema ni pola mene
E                 A
jel sve u meni od toga dana vene
F#m              Hm
pa budan sanjam da snovi duze traju
C#                  F#m
u svakoj prici samo ti si mi na kraju



F#7              Hm
Ti si pocetak i kraj
E              A
ti si i tama i sjaj
F#m            Hm
svaku mi nadu delis po pola
C#               F#m
dajes mi mrvice sa svoga stola
  C#                    F#m
i znam bez tebe ostacu sam


Refren:

F#m                      Hm
Jos uvjek sanjam da smo zajedno
E                   A
ko nekad davno ti i ja
F#m                    Hm
al jutro svaki put mi pokvari
C#                    F#m
tu slatku prevaru iz sna

F#m                      Hm
Jos uvjek sanjam da smo zajedno
E                   A
i da je sve ko prvi put
F#m                 Hm
al jutro nosi golu istinu
C#              F#m
da sve je bilo uzalud


F#m                 Bm
al jutro nosi golu istinu
C#              F#m
da sve je bilo uzalud

<< Povratak