Označite pesmu Preuzmite .pdf
Akordi u boji
Promena tonaliteta
AA#B ABH

Toma Zdravković - Vozovi Moji Prolaze

Toma Zdravković

Vozovi Moji Prolaze

Toma Zdravkovic - Vozovi Moji Prolaze

Transkripcija: Johnny035
05.08.2013.

Album: "Evo me opet" (1988.) - Jugoton
Muzika i tekst: Zarko Subotic
Aranzman: Faruk Jazic

Uvod:
  C                              G                F
  ___3____                         ________       __3__
  ________    _____ _____ _____    ___            _____   ___ ___ ____
E|------------------------------|----------------|---------------------|
H|------------------------------|----------------|---------------------|
G|------------------------------|7-7-8-7---------|---------------------|
D|10-10-10-10-10-10-10-10-10-10-|--------10-9----|7-7-7-7-7-7-7-7----7-|
A|------------------------------|----------------|----------------10---|
E|------------------------------|----------------|---------------------|

  E        G7                  C
           ________ _________  ___3____                      
           ________ _________  ________    _____ _____ _____ 
E|----------------------------|------------------------------|
H|----------------------------|------------------------------|
G|----------------------------|------------------------------|
D|9/10-9------------------7-9-|10-10-10-10-10-10-10-10-10-10-|
A|--------------7-8-10-10-----|------------------------------|
E|---------8-10---------------|------------------------------|

  G                F                  E      E G7
    ________
    ___                      ___ ___         
E|----------------|------------------|------------|
H|----------------|------------------|------------|
G|7-7-8-7---------|------------------|------------|
D|--------10-9----|10-9-7------------|------------|
A|----------------|-------10-8-8-8-7-|7------7-10-|
E|----------------|------------------|------------|

C
Bledi dani mog detinjstva
    E7      E7/H E7      E7/H       Am     G7
k’o jesenja kisa na putu Cigane što prati.  ________
C                                                   |
Umornim korakom zivot gazim.                        |(2x)
E7        E7/H  E7  E7/H      Am      G7 (Am G F)   |  
starim, a nemam     gde da se vratim.       ________|
                
Ref. (2x) 
E
Vozovi moji prolaze,
Am             E     G7
godine od mene beze.
C            E
Ljubavi moje odlaze,
Am     G     E   E7    Am     Am G F (Am)
svakim danom sve mi je teze.

Veza:
|C        |G        |F        |E    G7    |
|C        |G         |F        |E      E G7 |
                
Duge noci kao vrata
sto zauvek za mene ostaju zatvorena.
Mutnim pogledom gledam u sutra,
jer ko zna sta jos zivot mi sprema.
                
Ref. (2x)
Vozovi moji prolaze,
godine od mene beze.
Ljubavi moje odlaze,
svakim danom sve mi je teze.

Kraj: |Am  E  |Am    |

9/10 - triler

___3____
________ - triola osmina

E7 - x5765x
E7/H - x576x5

Napomena: U zagradama se svira kad se deo pesme ponavlja.

<< Povratak