Pesmarica
Akordi za gitaru



Označite pesmu Preuzmite .pdf
Akordi u boji
Promena tonaliteta
AA#B ABH

Djordje Balasevic - Sve Je Dobro Kad Se Dobro Svrsi

Djordje Balasevic

Sve Je Dobro Kad Se Dobro Svrsi

A                     D         A         E        A
---00---00---00---------22---22---00---00---00--00--00---------
---22---22---22---------33---33---22---22---00--00--22---------
---22---22---22---------22---22---22---22---11--11--22---------
----------------------0----0-----------------------------------
-0----0----0----0-2-4-----------0----0-------------0---0-2-4---
------------------------------------------0----0---------------
D          A         B7         E           
---22---22---00---00---22---22----00-----0---------------------
---33---33---22---22---00---00----00-----0---------------------
---22---22---22---22---22---22----11-----1---------------------
-0----0--------------------------------------------------------
-----------0----0----2----2------------------------------------
--------------------------------0--------0---------------------

A              D  A    E             A (prelaz I) 
Lana je vozila sanke,a ja sam pravio sneska.
A              D  A       E              A (prelaz II)
Dugo sam plaao danke,zbog jednog Laninog smeska.
D                 A                E             A (pelaz II)
Bili smo klinci i bilo je hladno i sneg je padao krupan. 
D                A                E                 A (intro) 
Te sam se zime zatreskao gadno,ko pravi pubertetski tupan.


A              D  A    E            A (prelaz I)
Lana je volela cvece,a ja sam voleo Lanu.
A                D   A   E              A(prelaz II)    
Korak od tuge do srece,u jednom jedinom danu.
D                 A             E                A(prelaz II)
Proslo je prolece,leto i jesen,ko nezni ljubavni sonet.
D                A               E                 A (intro)
Ja sam jos bio uglavnom zanesen,ko leptir vihorom ponet.


A               D A    E             A (prelaz I)
Lana je pratila modu,a ja sam pratio Lanu.
A               D A    E               A (prelaz II)
Ljubavi dodju i odu, al Lana je uvek u planu.
D              A                    E               A
Ima detalja za koje bas ne znam dal mogu u pesmu da stanu.
     A             D A    E           A
Jer, Lana je imala muza,a ja sam imao Lanu!


Napomena : prelaz I -------------   prelaz II --------------
                    -------------             --------------
                    -------------             --------------
                    -------------             --------0-----
                    --------0----             --0-2-4-------
                    --0-2-4------             --------------

<< Povratak