Pesmarica
Akordi za gitaru



Označite pesmu Preuzmite .pdf
Akordi u boji
Promena tonaliteta
AA#B ABH

Nevreme - Koferi

Nevreme

Koferi

             Dm                           C                          B       
E|------------------1------|-----------------------0---|-------------------------|
B|----------------------3--|-------------------1-------|------------3------------|
G|------------2------------|---------------------------|--------------3----------|
D|-------0-----------------|------------2--------------|---------3---------------|
A|-------------------------|-------3-------------------|-----1-------------------|
E|-------------------------|---------------------------|-------------------------|
             C
E|-------------------------|
B|-------------------------|
G|-------------------------|
D|-----------------0-------|
A|--------0---3------------|
E|----3--------------------|

Pesma se razlaze do dela "u snovima... da te dotaknem"

Dm       C          B     C
Stalno sanjam isti san
Dm      C       B      C
Cekam da se pojavis
Dm  C     B        C
I onda, kad dodjes
Dm    C     B     C
Ja se probudim

Dm    C         B        C
U mojoj glavi haos, i nemiri
Dm    C        B       C
Kazi gde da pobegnem
Dm        C        B     C
Kad bih barem u snovima
Dm     C        B      C
Mogao da te pronadjem

Dm C B C

Dm  C  B  C  Dm   C      B   C  
U snovima... da te dotaknem.

Solo- mrzelo me da dodajem, kad stignem dodacu
Dm         C      B    C
Kad covek ostane sam
Dm        C       B    C 
Kad vise nikoga nema
Dm        C       B     C
Stavlja stvari, puni kofere
Dm        C       B     C 
Na dalek put se sprema
Dm   C    B  C   Dm  C   B    C
Na dalek put... na dalek put...
Dm   C    B  C   Dm  C   B    C
Na dalek put... na dalek put...

<< Povratak