Pesmarica
Akordi za gitaru



Označite pesmu Preuzmite .pdf
Akordi u boji
Promena tonaliteta
AA#B ABH

Dino Dvornik

Zasto pravis slona od mene

e||---------------------------------|
H||---------3--------------------0--|
G||-2-4-2-4---4-4-2-4--2-1-2-1-2----| \ 4
D||---------------------------------| / x
A||---------------------------------|
E||---------------------------------|


Hm  E                                 > 2x (pratnja uz uvodni solo)


Hm
Ti dobro znas da ja znam
S kim si provela noc
E
I jos znam da te nije bilo sram
Dok te skidao on. Ha.


Hm
Al nije on, samo on
Dos'o u tvoj stan
E
Ni prvi put, ni zadnji put
Bila je ceta daka za jedan dan.


Hm                         Fill 1
Zasto pravis slona od mene
   E                      Fill 2
Za tako nesto nema potrebe
Hm
On je cijele noci bio kraj tebe
  E
I gurao je tamo gdje ne smije.
Ne, ne, ne ne!


Al znaju svi, majke mi
Nikom nisam pricao
Pa sta i da jesam
Ne bih mnogo lagao.

Ne znas ti, jos manje ja
Al' doznat cemo sve
Cija si, i cije je
To sto skrivas ispod haljine.

Zasto pravis slona od mene
Za tako nesto nema potrebe Ne, ne, ne, ne!
On je cijele noci bio kraj tebe
I gurao je tamo gdje ne smije.


< solo:    Hm E  4x >


Zasto pravis slona od mene           \
Za tako nesto nema potrebe            \
On je cijele noci bio kraj tebe        > 2x
I gurao je tamo gdje ne smije.        /
Ne, ne, ne, ne!                      /





  Fill 1           Fill 2
e||---------------||------------------|
H||-----------0-0-||-----3-2-----3-2--|
G||-2-1-2-1-2-----||-2/4-----2/4------|
D||---------------||------------------|
A||---------------||------------------|
E||---------------||------------------|

<< Povratak