Pesmarica
Akordi za gitaru



Označite pesmu Preuzmite .pdf
Akordi u boji
Promena tonaliteta
AA#B ABH

Djordje Balasevic - Pesma o Jednom Petlu

Djordje Balasevic

Pesma o Jednom Petlu

       Bm                C#7              F#7              Bm
E-----|--------2--------|----------------|----------------|------
B-----|---23-5--3-------|-----3-2--------|------2-3-2-----|------
G-----|4------------4---|----------------|----3------3----|------
D--4--|---------------4-|-3-----------3--|-2-4----------4-|-0----
A-----|-----------------|----------------|----------------|------
E-----|-----------------|----------------|----------------|------
 Bm                      C#7              F#7               Bm F#7 Bm
E-----|--------2--------|----------------|----------------|------------|
B-----|---23-5--3-------|-----3-2--------|-----------2-3--|-0----------|
G-----|4------------4---|--------------4-|-3--------3-----|------------|
D--4--|---------------4-|-3--------------|---45-3-4-------|------------|
A-----|-----------------|----------------|----------------|------------|
E-----|-----------------|----------------|----------------|------------|   

 
         F#7                    Bm
Imao sam strasnog petla, bio je pravi davo.
   A                D
Na kisi i na vetru uvek je stajao pravo.
   Em                    Bm
Po selu perje leti, dize se strasna graja.
    F#7                   Bm  F#7  Bm
U nasoj kuci uvek...bilo dobrih jaja.

Imao sam strasnog petla, bio je pravi ludak.
Koju taj koku kljucne, ko da je tresno budak.
A koke cudne ptice, uvek im srce kuca
za nekim grubijanom, koji dobro kljuca.

         A                   D
Za njega nisu bile samo koke slatke,
           A                     D
ne, taj je skako i na guske i na patke,
         Em                       Bm
a tek na curke, cim je bilo neke sanse.
              F#7                 Bm F#7Bm
Ma princip je isti, sve su ostalo nijanse.

Imao sam strasnog petla, bio je malo cudan.
Po danu nesto dremljiv, al nocu uvek budan.
Curice iz mog sela su cule za tog dasu,
zbog tog sam petla i ja bio na dobrom glasu.

refren

Imao sam strasnog petla, bio je prvak sveta.
Danas su petli cudni, svaka im dlaka smeta.
Ja ne znam sta je razlog, danas su drugi dani.
Uglavnom spram mog petla ovo su sve cverglani.

Meni je seset peta, stize jesen pozna.
Putuje moje drustvo i ja cekam na red.
Ne bi mi ova starost bila tako grozna
da cujem petla barem mesecno jedared.

intro

Poslusaj zato savet sto ce ti cica dati.
Kad imas mladog petla, nedaj mu da se pati.
Pusti ga neka leti, neka ga koke vide.
Posle ce biti kasno i petlu vreme ide.

Ajd ziveli.

A D A D Em Bm F#7 BmF#7Bm

<< Povratak