Pesmarica
Akordi za gitaru



Označite pesmu Preuzmite .pdf
Akordi u boji
Promena tonaliteta
AA#B ABH

Dave Stewart And Candy Dulfer - Lily Was Here

Dave Stewart And Candy Dulfer

Lily Was Here

--------------|-----------------|
--0-----------|--0--------------|
----0--2------|----0--2---------|
---------2----|---------2/4~-54-|
--------------|----------------7|
--------------|-----------------|
First Main Guitar Part

[ Tab from: http://www.guitaretab.com/d/dave-stewart-and-candy-dulfer/215769.html ]
-----10~------|-----10~------------|
----8-----8~--|----8-----8^10~10/12|
--/9-----9----|--/9-----9----------|
--------------|--------------------|
--------------|--------------------|
--------------|--------------------|
Second Main Guitar part


----15-15-14--|----15-15-14-14-12-12--------|
--12--------12|--12-----------------15~15b17|
--------------|-----------------------------|
--------------|-----------------------------|
--------------|-----------------------------|
--------------|-----------------------------|
Third Main Guitar Part

<< Povratak