Pesmarica
Akordi za gitaru



Označite pesmu Preuzmite .pdf
Akordi u boji
Promena tonaliteta
AA#B ABH

Dino Dvornik - Hipnotiziran

Dino Dvornik

Hipnotiziran

          F# (E) F# 
Daj što daš nemam vremena
brz je dan, brzo izgaram
        H (A) H
što je sad reci mi da znam

Daj što daš što mi ne treba
bacit’ ću sve na koljena
možda znam a možda riskiram

F#          E           H (A) H
Nemam pojma što se događa
    F#          A          H
i nemam znanja da bar pogađam


         F#         Asus2      Hsus2
Ja sam hipno-tizi-tizi-ran o, yeah


E------------5-2
A------4-2-----
D-4-------------
G----2----------
H----------------
e-----------------


E------------5--
A------4-2-----
D-4-------------
G----2----------
H----------------
e-----------------

<< Povratak