Pesmarica
Akordi za gitaru



Označite pesmu Preuzmite .pdf
Akordi u boji
Promena tonaliteta
AA#B ABH

Djordje Balasevic - Prva Ljubav

Djordje Balasevic

Prva Ljubav

Pesma ide iz A, kapo nije koriscen



E-|---0----|---0----|
B-|--2-2-2-|--2-2-2-|
G-|-2---2-2|-2---2-2|
D-|--------|--------|
A-|0-------|0-------|
E-|--------|--------|


    Tad.....znao.....verovao..ima.
E-|---0----|---0----|---0----|---2----|3--2--3-|
B-|--2-2-2-|--2-2-2-|--2-2-2-|--3-3-3-|-3--3--2|
G-|-2---2-2|-2---2-2|-2---2-2|-2---2-2|--2--2--|
D-|--------|--------|--------|0-------|--------|
A-|0-------|0-------|0-------|--------|--------|
E-|--------|--------|--------|--------|--------|

    Jedino..bilo.....krilo....tima.
E-|---0----|---0----|---0----|---0----|---0----|
B-|--0-0-0-|--0-0-0-|--0-0-0-|--2-2-2-|--2-2-2-|
G-|-1---1-1|-1---1-1|-1---1-1|-2---2-2|-2---2-2|
D-|2-------|2-------|2-------|--------|--------|
A-|--------|--------|--------|0-------|0-------|
E-|--------|--------|--------|--------|--------|


tako i druge strofe

        Pr..ljubav..nezvana..
E-|---2----|---2----|---0----|---0----|
B-|--3-3-3-|--3-3-3-|--2-2-2-|--2-2-2-|
G-|-4---4-4|-4---4-4|-2---2-2|-2---2-2|
D-|--------|--------|--------|--------|
A-|2-------|2-------|0-------|0-------|
E-|--------|--------|--------|--------|


         Za.vremena..negde..duboko....
E-|---2----|---2----|---0----|---0----|
B-|--3-3-3-|--3-3-3-|--0-0-0-|--3-3-3-|
G-|-4---4-4|-4---4-4|-1---1-1|-1---1-1|
D-|--------|--------|2-------|2-------|
A-|2-------|2-------|--------|--------|
E-|--------|--------|--------|--------|

<< Povratak