Pesmarica
Akordi za gitaru



Označite pesmu Preuzmite .pdf
Akordi u boji
Promena tonaliteta
AA#B ABH

Pussycat

Dobar ili lud

Pussycat - dobar ili lud

////INTRO\\\\\\

-Pocetni rif:

e|--------------------------------|
H|--------------------------------|
G|------4-----2-----4----6/7------|
D|----2/4---1/2---2/4----6/7--6/7-|
A|----------------------------6/7-|
E|--------------------------------|

e|--------------------------------|
H|--------------------------------|
G|------4-----2-----0----6/7------|
D|----2/4---1/2----0-----6/7--6/7-|
A|----------------------------6/7-|
E|--------------------------------|

*Sad idu power akordi*

H>A>H>D>A
H>A>G>D>A

>Glavni fill<

e|--------------------------------|
H|--------------------------------|
G|-7-----9--7-----9----7------7---|
D|-7h8h9-9--7h8h9-9----7--9p7-7---|
A|--------------------------------|
E|--------------------------------|

/////1. Strofa\\\\\
      H		   A	E
-----------------------------
Nekad beo, ponekad crn
Nekad ruza, ponekad trn
Nemas kuda, i ne znas gde >Ovde naglasava H, tj. drugaciji je strumming
-----------------------------
D		  E
-----------------------------
Pokazi mi, negde ?pobedi? me

//////Ref.\\\\\
       H      A
Kad si dobar, misle da si lud
       H		   D	      A
kad si lud, lud, lud, samo vrtis se u krug
       H     A
kad si ljut, naci ces svoj put
       G    D		  A
ja sam lud, necu da cekam ?ovaj put?

-->Glavni fill<---

/////2. Strofa\\\\\
      H		   A	E
-----------------------------
Nekad vatra, ponekad led
Sa malo nade, tvoj bice svet
Budi noc, budi moj dAaAan >Ovde naglasava H, tj. drugaciji je strumming
-----------------------------
D		  E
-----------------------------
Uz mene ti, nikad nisi sam

//////Ref.\\\\\

->>>>SOLO<<<<-
Ide preko F#(sve vreme je F#), il' ga skini, il' improvizuj


-->Glavni fill<---

//////Ref.\\\\\ x2 
(ovde je razlika sto poslednji stih ide
"Ja sam lud, ja sam lud", pa drugi put
"Ja sam lud, ja sam lud, lud, lud, luuuuud")	Ludo i brzo macke!

<< Povratak