Pesmarica
Akordi za gitaru



Označite pesmu Preuzmite .pdf
Akordi u boji
Promena tonaliteta
AA#B ABH

Lude Krawe

Status quo

    A                 F#                D              E
E|--------------------------------------------------------------
B|--------------------------------------------------------------
G|-----------------------------------------------------7--6-----
D|--7--6--7--9--7--6--7--6--7--9--7--6--7--6--7--9--7--------9--
A|--------------------------------------------------------------
E|--------------------------------------------------------------

    A                 F#             D        E      
E|-----------------------------------------------------
B|-----------------------------------------------------
G|--------------------------------------------7--6-----
D|--7--6--7--9--7--6--7--6--7--9--7-----6--7--------9--
A|-----------------------------------9-----------------
E|-----------------------------------------------------
...........
    A                 F#                D              E
E|--------------------------------------------------------------
B|--------------------------------------------------------------
G|-----------------------------------------------------7--6-----
D|--7--6--7--9--7--6--7--6--7--9--7--6--7--6--7--9--7--------9--
A|--------------------------------------------------------------
E|--------------------------------------------------------------

   A                  F#             D        E
E|-----------------------------------------------
B|-----------------------------------------------
G|--------------------------------------------7~-
D|--7--6--7--9--7--6--7--6--7--9--7-----6--7-----
A|-----------------------------------9-----------
E|-----------------------------------------------



      A  
Imate oči svako svoja dva
          D
za status quo dovoljna.
A                    E
Glupost je blagoslov,
              A        D
takva vremena su vama izgovor,
A      F#               E
a meni volja neuništiva.


        A           E   D       
Svojim novcem kupit ćeš san ili dva,
A                         E              
nikada videti nećeš dalje od svoga prsta.
A 
Ja sam miran, spava grad,
        D             A
a tebe savest proganja
                             E      D
da te pretvori u bledu senku ničega 



             A              E              F#             D  E     D   E
E|--------------------------------------------------------------------------
B|--------------------------------------------------------------------------
G|--7--6-----------------------------------------------------------7--6-----
D|--------9--7--7--6--7--9--7--7--6--7--9--7--7--6--7--9-----6--7--------9--
A|--------------------------------------------------------9-----------------
E|--------------------------------------------------------------------------

    A              A
E|--------------------------------
B|--------------------------------
G|--6--6--6--6--6--------------6--
D|-----------------9--9--7--9-----
A|--------------------------------
E|--------------------------------


          
A        E               F#
Volim da volim pa prestanem,
  
pre kraja da odustanem,
E    A       E        D
kad sat zvoni da neustanem.

 
A        E               F#
Volim da volim pa prestanem,
  
pre kraja da odustanem,
E    A       E        D
kad sat zvoni da neustanem. 


    F#
Vaš omiljeni junak

danas je izjavio 
        E
kako je godinama gledaoce

lazima zavlacio
D
i kako nikad nije dosta para,
                 E 
nije dosta para ,slave I da je
F#
primitivna droga začudo efektna.
E
Prizor sve obecava:
       D             A
zelena livada, ona i ja,
             E
romantika je lepa,
ali beskorisna.

         E               F#
Volim da volim pa prestanem,
  
pre kraja da odustanem,
E    A       E        D
kad sat zvoni da neustanem. 



A        E               F#
Volim da volim pa prestanem,
  
pre kraja da odustanem,
E    D       A        E
kad sat zvoni da neustanem. 

 

Volim da volim pa prestanem,
preje kraja da odustanem,
kad sat zvoni da neustanem. X2

A         E               F#
Volim da volim pa prestanem,
  
pre kraja da odustanem,
E    A       E        D
kad sat zvoni da neustanem.


A         E               F#
Volim da volim pa prestanem,
  
pre kraja da odustanem,
E    A       E        F#
kad sat zvoni da neustanem.


    A
E|-----------------------------
B|-----------------------------
G|-----------------------------
D|--7--6--7--9--7--7--6--7--9--
A|-----------------------------
E|-----------------------------

<< Povratak