Pesmarica
Akordi za gitaru



Označite pesmu Preuzmite .pdf
Akordi u boji
Promena tonaliteta
AA#B ABH

Djordje Balasevic - Prica o Vasi Ladackom

Djordje Balasevic

Prica o Vasi Ladackom

   Am               G6               F                Esus4
E-|----------------|----------------|----------------|----------------|
B-|------------1--0|----------------|----------------|----------------|
G-|----------------|----------------|----------------|----------------|
D-|----------2-----|2-----------020-|----------0-2-3-|2-----0---------|
A-|0-----2-3-------|---------------3|0-----2-3-------|-------32-------|
E-|----------------|----------------|----------------|----------------|

Am            E7         Am      C           G           C  
 Znate l pricu  o Vasi Ladackom?  I ja sam je tek onomad cuo.
Dm                     Am                 E7                     Am    E7              
 Jednom devet dana nije izlazio iz birtije, kazu da je bio cudna sorta

Am         E7         Am  (AmGAmG) C        G              C
 Otac mu je bio sitni paor          ranio je sedam gladnih usti
Dm                    Am          Am7        Dm6        E7          Am   E7
 mati mu je bila plava tiha, nezna, jekticava umrla je s trideset i nesto
Am       E7           Am    (AmGAmG) C         G7          C
 Imali su  par jutara zemlje          malu kucu na kraju sokaka
Dm                    Am            Am7         Dm6        E7         Am
 na astalu navek hleba  taman tolko kolko treba al je Vasa hteo mnogo vise
 
C          G7         C           G7         Dm           E7         Am
 Zeleo je konje vrane, po livadi razigrane sat sa zlatnim lancem i salase 
C          G7         C           G7        Dm         E7        Am
 Zeleo je njive plodne, vinograde blagorodne u karuce pregnute cilase
E7                   Am  E7  
 ali nije mogo da ih ima

Am            E7      Am (AmGAmG) C         G           C
 Voleo je lepu, al sirotu          uzo bi je samo da je znao...........
                   Dm6          E7            Am          
....................i jos pamte sta je zadnje reko

C            G7          C           G7          Dm       E7       Am       
 Dzaba bilo konja vranih, po livadi razigranih dzaba bilo sata i salasa
C            G7          C           G7         Dm          E7        Am
 dzaba bilo njiva plodnih, vinograda blagorodnih dzaba bilo karuca, cilasa
E7                      Am       E7                     Am   E7  
 kada nisam s onom koju volem x3 kada nisam s onom koju volem

Am            E7         Am      C           G           C  
 Znate l pricu  o Vasi Ladackom?  I ja sam je tek onomad cuo.
Dm                     Am                    E7
 cak i oni slicni njemu kada razmisle o svemu kazu da je bio cudna 

Am                  G6                F                Esus4            Am           
sorta
E-|----------0-8--7|0----------------|------------0--1|0---------------|----------------|
B-|------0-1-------|-------------353-|------0-1-3-----|------310-------|----------------|
G-|2---------------|----------------5|2---------------|----------------|2---------------|
D-|----------------|-----------------|----------------|----------------|----------------|
A-|----------------|-----------------|----------------|----------------|----------------|
E-|----------------|-----------------|----------------|----------------|----------------|
   

<< Povratak