Pesmarica
Akordi za gitaru



Označite pesmu Preuzmite .pdf
Akordi u boji
Promena tonaliteta
AA#B ABH

Magnifico

Pukni Zoro (TAB)

---------5--7-8-5-------
----7-8-----------8--7-8-7-5-5----
--------------------
--------------------
--------------------
--------------------

----------------5------------------------7-5---------5--
--8-8-7-7-5-0-7---8-7-5-|-8-8-7-7-5-7-8-------8-7-8----7-5-5---2x
--------------------
---------------------
---------------------
---------------------

--------5-7-8-10|-12-12-14-15-14-12-10|-10-12-10-8-7-7-10|-5-7-8-7-------
--5-7-8------------------------------------------------------------8-7-8-7-5-5-----------
------------------------------------ refren: 2x
----------------------------------
---------------------------------
--------------------------------

<< Povratak