Pesmarica
Akordi za gitaru



Označite pesmu Preuzmite .pdf
Akordi u boji
Promena tonaliteta
AA#B ABH

Sekstet Skadarlija - Jesenje Lisce

Sekstet Skadarlija

Jesenje Lisce

  Em  B7      C       G       Am  Em      Am  Em  C   B7  Em
-|3--|2--|2--|0--|0--|---|---|---|---|---|---|---|---|---|---|
-|---|--0|---|---|---|3-0|---|---|0--|--0|1--|0--|---|---|---|
-|---|---|---|---|---|---|0--|2--|---|-3-|---|---|0-0|--0|---|
-|---|---|---|---|---|---|---|---|---|---|---|---|---|4--|2--|
-|---|---|---|---|---|---|---|---|---|---|---|---|---|---|---|
-|---|---|---|---|---|---|---|---|---|---|---|---|---|---|---|

Em                Am C7 B7 
Jesenje lišce vec opalo je,
Em        G     D         G    B7
ni travke nema, pustoš je svud,
Em B7     C      G      Am
u  duši mojoj, u srcu mome, /
Em       Am Em C B7   Em
još uvek vlada vecita stud./ x2

Em              Am   C7 B7
Uzalud behu sve nade mo-je,
Em       G     D          G B7
zalud se nadah da ceš ostati,
Em  B7        C      G       Am
al  sad tek vidim da zbilja ideš/
Em      Am Em  C       B7   Em
i da se mo-ram s tobom rastati./x2

  Em            Am            Em            B7     Em
-|------|------|------|------|------|------|------|------|
-|--0-1-|0101--|----0-|-0-0--|------|------|------|------|
-|------|----2-|--2---|2-2-0-|--0-2-|0202--|------|------|
-|------|------|------|------|------|----4-|--5-4-|2-----|
-|------|------|------|------|------|------|------|------|
-|------|------|------|------|------|------|------|------| x2

Em              Am  C7 B7
Ah, idi, idi, u daleki svet.
Em      G     D       G    B7
Mira ti želim na putu tvom.
Em B7       C     G        Am
Al kad ti bude blistala sreca/
Em      Am Em    C   B7   Em
seti se me-ne ne zaboravi me/x2

  Em            Am            Em            B7     Em
-|------|------|------|------|------|------|------|------|
-|--0-1-|0101--|----0-|-0-0--|------|------|------|------|
-|------|----2-|--2---|2-2-0-|--0-2-|0202--|------|------|
-|------|------|------|------|------|----4-|--5-4-|2-----|
-|------|------|------|------|------|------|------|------|
-|------|------|------|------|------|------|------|------| x2

<< Povratak