Pesmarica
Akordi za gitaru



Označite pesmu Preuzmite .pdf
Akordi u boji
Promena tonaliteta
AA#B ABH

Dragan Kojić Keba & Ceca - U Snu Ljubim Medna Usta

Dragan Kojić Keba & Ceca

U Snu Ljubim Medna Usta

Transkripcija: Johnny035
29.11.2009.
http://2akordi.net/

Muzika i aranzman: Zoran Starcevic
Tekst: Ivanka Zivanovic - Dezdemona
Album (solo verzija): 
"S ljubavlju tebi od mene" (1992.) - Diskos
Album (duet: Keba i Ceca): 
"Svi za jednog jedan za sve 2" (1993.) - Bon Ami i M.I.T. "Starcevic"

Solo:
  Em/H           A        D     Hm       Em    F#      Hm 
      ____
      ____                        ______         _____
E|--------------|--------------|--7-9-10-9----|----7-9-7----|
H|--------------|--------------|7-------------|--7----------|
G|--------------|--------------|--------------|6------------|
D|--------------|--9-7---------|--------------|-------------|
A|7---10-9-7----|7-----10-9----|--------------|-------------|
E|--------------|--------------|--------------|-------------|

  Em/H              A           D      
       _____
       _____
E|-----------------|---19-17----------|
H|17---20-19-17----|17-------20-19----|
G|-----------------|------------------|
D|-----------------|------------------|
A|-----------------|------------------|
E|-----------------|------------------|

  Hm       Em    F#      Hm    Hm             Hm
    ______         _____       ________       _________
E|--7-9-10-9----|----7-9-7----|10-9-7--------|-------------|
H|7-------------|--7----------|-------8-7----|-------------|
G|--------------|6------------|--------------|7-6-4--------|
D|--------------|-------------|--------------|------5-4----|
A|--------------|-------------|--------------|-------------|
E|--------------|-------------|--------------|-------------|

Hm               Em
Sanjao sam nocas jedno crno oko,
F#                      Hm
leteo sam u snovima ... visoko, visoko...
Hm               Em
Sanjao sam nocas jedno crno oko,
F#                  G  A       Hm
leteo sam u snovima ... visoko, visoko...
(Hm                Em             )
(Sanjala sam nocas jedno crno oko,)
(F#                   G  A       Hm        )
(letela sam u snovima ... visoko, visoko...)

Ref.(2x)
Em/H         A     D
U snu ljubim medna usta, 
Hm       Em  F#       Hm
Eh, ljubavi, zeljo pusta.

Solo:
  Em/H          A        D     Hm       Em    F#      Hm 
      ____
      ____                       ______         _____
E|-------------|--7-----------|--7-9-10-9----|----7-9-7----|
H|----8-7------|----10-8-7----|7-------------|--7----------|
G|9-------9----|9-------------|--------------|6------------|
D|-------------|--------------|--------------|-------------|
A|-------------|--------------|--------------|-------------|
E|-------------|--------------|--------------|-------------|

  Em/H              A           D      
       _____
       _____
E|-----------------|---19-17----------|
H|17---20-19-17----|17-------20-19----|
G|-----------------|------------------|
D|-----------------|------------------|
A|-----------------|------------------|
E|-----------------|------------------|

  Hm       Em    F#      Hm    Hm             Hm
    ______         _____       ________       _________
E|--7-9-10-9----|----7-9-7----|10-9-7--------|-------------|
H|7-------------|--7----------|-------8-7----|-------------|
G|--------------|6------------|--------------|7-6-4--------|
D|--------------|-------------|--------------|------5-4----|
A|--------------|-------------|--------------|-------------|
E|--------------|-------------|--------------|-------------|

Hm                Em
Plakalo je jutros jedno crno oko,
F#                     Hm
tonuo sam u ponore ... duboko, duboko...
Hm                Em
Plakalo je jutros jedno crno oko,
F#                 G  A       Hm
tonuo sam u ponore ... duboko, duboko...
(Hm                Em             )
(Plakalo je jutros jedno crno oko,)
(F#                  G  A       Hm       )
(tonula sam u ponore ... duboko, duboko...)

Ref.(2x)
Em/H         A     D
U snu ljubim medna usta. 
Hm       Em  F#       Hm
Eh, ljubavi, zeljo pusta.

Solo:
  Em/H          A       D     Hm      Em     F#      Hm 
      ____
      ____                      ______           _____
E|-------------|-------------|--7-9-10-9----|----7-9-7----|
H|-------------|-------------|7-------------|--7----------|
G|-------------|--4-2--------|--------------|6------------|
D|2---5-4-2----|2-----5-4----|--------------|-------------|
A|-------------|-------------|--------------|-------------|
E|-------------|-------------|--------------|-------------|

  Em/H             A           D      
E|----------------|---19-17----------|
H|17---20-19-17---|17-------20-19----|
G|----------------|------------------|
D|----------------|------------------|
A|----------------|------------------|
E|----------------|------------------|

  Hm       Em    F#      Hm    Hm             Hm
    ______         _____       ________       _________
E|--7-9-10-9----|----7-9-7----|10-9-7--------|-------------|
H|7-------------|--7----------|-------8-7----|-------------|
G|--------------|6------------|--------------|7-6-4--------|
D|--------------|-------------|--------------|------5-4----|
A|--------------|-------------|--------------|-------------|
E|--------------|-------------|--------------|-------------|

Ref.(2x)
Em/H         A     D
U snu ljubim medna usta. 
Hm       Em  F#       Hm
Eh, ljubavi, zeljo pusta.

  Hm
E|------------14----|
H|---14-15-17-------|
G|16----------------|
D|------------------|
A|------------------|
E|------------------|

Ref:
Hm      Em   F#       Hm
Eh, ljubavi, zeljo pusta...

Kraj:
  Hm   G   A      Hm
  ____
E|---------------|---------|
H|---------------|---------|
G|---------------|---------|
D|9--------------|9--------|
A|--12-10--12----|---------|
E|---------------|---------|

________________________________________________________________________
Za one koji sviraju na klasicnoj gitari:

Solo:
  Em/H          A        D     Hm       Em    F#      Hm 
      ____
      ____                       ______         _____
E|-------------|--7-----------|--7-9-10-9----|----7-9-7----|
H|----8-7------|----10-8-7----|7-------------|--7----------|
G|9-------9----|9-------------|--------------|6------------|
D|-------------|--------------|--------------|-------------|
A|-------------|--------------|--------------|-------------|
E|-------------|--------------|--------------|-------------|

  Em/H              A           D      
       _____
       _____
E|-----------------|---19-17----------|
H|17---20-19-17----|17-------20-19----|
G|-----------------|------------------|
D|-----------------|------------------|
A|-----------------|------------------|
E|-----------------|------------------|

  Hm       Em    F#      Hm    Hm             Hm
    ______         _____       ________       _________
E|--7-9-10-9----|----7-9-7----|10-9-7--------|-------------|
H|7-------------|--7----------|-------8-7----|-------------|
G|--------------|6------------|--------------|7-6-4--------|
D|--------------|-------------|--------------|------5-4----|
A|--------------|-------------|--------------|-------------|
E|--------------|-------------|--------------|-------------|

<< Povratak