Akordi za gitaru



Označite pesmu Preuzmite .pdf
Akordi u boji
Promena tonaliteta
AA#B ABH

Djordje Balašević - Ne volim januar

Djordje Balašević

Ne volim januar

NE VOLIM JANUAR TABOVI
SOLO:
e|--2-3-2-0------|---------|-0-2-0-------|---------|-2-3-2-0-----|---------|-0-------
H|-----------3-2-|-----0-2-|-------3-2-0-|---0-2-3-|---------3-2-|-----0-2-|---3-2-0-
G|---------------|---3-----|-------------|-3-------|-------------|---3-----|---------
D|---------------|-4-------|-------------|---------|-------------|-4-------|---------
A|---------------|---------|-------------|---------|-------------|---------|---------
E|---------------|---------|-------------|---------|-------------|---------|---------

2.deo:
e|--2-3-2-0-----|5---3---2-0-|-5-3-2-0-2-|---------|-2-3-2-0-----|---------|-0-------
H|----------3-2-|------------|-----------|---0-2-3-|---------3-2-|-----0-2-|---3-2-0-
G|--------------|------------|-----------|-3-------|-------------|---3-----|---------
D|--------------|------------|-----------|---------|-------------|-4-------|---------
A|--------------|------------|-----------|---------|-------------|---------|---------
E|--------------|------------|-----------|---------|-------------|---------|---------
Am       E                    Am        
Ne volim januar ni bele zimske vragove.
         C  G             C    
U svakom snegu vidim iste tragove,
        Dm                Am  
tragove malih stopa, broj trideset i ko zna,
C    E       Am
kako polako odlaze.

Vise ne prolazim ulicom Dositejevom
i nemam pojma kad neko pita gde je to.
Tih dvesta sest koraka duzinom tog sokaka
nikad ja nisam brojao.
  
    C              G
    Nisam te nikad cuvao,
    E              Am      
    nisam te nikada mazio, pazio.
    C                G
    Tvoju sam ljubav gazio,
    E             Am   
    svemu smisljao broj.
    
    C              G      
    Nisam te nikad stedeo
    E           Am
    i nisam umeo stati ni ostati.
    C              G
    Sta ce od mene postati,
    E           Am
    mali andjele moj?

<< Povratak