Pesmarica
Akordi za gitaru



Označite pesmu Preuzmite .pdf
Akordi u boji
Promena tonaliteta
AA#B ABH

Djordje Balasevic - Olivera

Djordje Balasevic

Olivera

A   |A   |

D                F#m     C#m            D                             
 Na pragu svojih dvadeset  bio sam laka roba
Bm                 E         A
 bile su moderne barabe onih dana. 
D                  F#m          C#m                 D
 Ne zelim svega ni da se setim  hteo sam eto sve da probam
Bm                   E             A
 zvalo me zabranjeno voce s raznih grana.

           D              E7     A      Amaj7      F#m    A/5                             
 Sad zalim da al  sta sam znao ja ti si bila jos devojcica
D             E7            D  A
 leteo je kao leptir tvoj cuperak
          D         E7     A      Amaj7        F#m  A/5
 Drugi bi sve imalo smisao, drukcije bih zivot disao
D                  E7          
 da sam znao da postojis...
        Dm6  A               D             E              A    C#7   
  ....Oliveeera 
------------|---------------|-------------|--------------|------------|
------------|---2-3-2-0-----|-------------|--0-2-0-------|------------|
------------|-----------2-1-|-------------|--------2-1---|------------|
------------|---------------|-4-----------|------------4-|2-----3-----|
------------|---------------|-------------|--------------|------------|
------------|---------------|-------------|--------------|------------|

F#m          D                E7               A          A                        
------------|----------------|----------------|----------|-------------|
------------|----------------|----------------|----------|-------------|
------------|----------------|----------------|----------|-------------|
-4----------|----------------|-----2---2------|----------|-------------|
------4-0-2-|-0--------------|-3-4---4---0-3--|-0--------|-------------|-
------------|----------------|----------------|----------|-------------|
D                F#m         C#m              D
 Mozda sam, a da nisam znao, pred isti izlog s tobom stao.
Bm                     E         A
 Mozda smo zajedno iz voza negde sisli. 
D                F#m        C#m          D
 Mozda si sasvim blizu bila ulicom mojom prolazila
Bm                     E        A
 i mozda smo se za trenutak mimoisli. 
          D             E7      A     Amaj7      F#m    A/5         
Sad zalim da al sta sam znao ja,ti si bila jos devojcica 
D               E7        D A
 daleko od moga oka i mog pera. 
          D         E7     A        Amaj7        F#m   A/5
 Drugi bi sve imalo smisao.  Ne bih svakoj pesme pisao,
D                  E7          Dm6 A 
 da sam znao da postojis... Oliveeera....solo...
          D         E7      A          Amaj7    F#m    A/5
 Drugi bi sve imalo smisao.  Ja bih iz te guzve zbrisao,
D                   E7           D   A
 i nikom ne bi bilo jasno sta to smeram. 
          D           E7        A        Amaj7    F#m     A/5
 Znao bih gde da sebi nadjem mir skrio se u tamni manastir  
D              E7         Dm6 A 
 cekao da ti odrastes, Oliveeera. 
 

<< Povratak