Pesmarica
Akordi za gitaru



Označite pesmu Preuzmite .pdf
Akordi u boji
Promena tonaliteta
AA#B ABH

Tijana Dapčević(Sakis Rouvas) - Ona to zna(Ola kala)

Tijana Dapčević(Sakis Rouvas)

Ona to zna(Ola kala)

 Napomena: Ovo su akordi pjesme Sakisa Rovasa - Ola kala,
 u biti grčki orginal pjesme ona to zna, akordi u
 potpunosti odgovaraju, ako nekome nije mrsko samo
 neka ih stavi na Tijanin tekst, meni je bilo :P 

  Am     G        F           G       Am
e|---------3----1p0-1--1h3-1-0-------------|
B|-----0-1----------------------3-1-0------|
G|--2-----------------------------------2--| x2
 
Am
  Μη μου κλαις μη μου κλαις δυνατή να φανείς θέλω εσύ
G
  και 'γω θα 'μαι δω στο πλευρό σου ανά πάσα στιγμή.
F             G              F          G
  Θα βοηθήσω, θα σε φροντίσω, τίποτα κακό δε θ' αφήσω
F                G              E      E  D  C  Bm  Am
  να μου πάθεις ,θα σε προσέχω και... πί-στε-ψέ με...
 
Bridge: (*)
 
Am       G  F        G
  Όλα καλαααα όλα καλά θα σου πάνε
Am       G  F              G
  Όλα καλαααα  θα φτιάξουν όλα όπου να 'ναι
Am       G  F          G
  Όλα καλαααα μη σταματήσεις να ελπίζεις.
Am         Dm  F           E
  Κράτα γεραααα γιατί στο τέλος κερδίζεις.
 
(*)
    Am     G        F           G       Am
e|---------3----1p0-1--1h3-1-0-----------------|
B|-----0-1----------------------3-1-0----------|
G|--2-----------------------------------2------| x3
    Am      Dm       F          E
e|---------------------------------------------|
B|-----0-1--3----1-0-1---1-3-1--5--3--1--0-----|
G|--2---------------------------------------2--|
 
Refrain:
 
    Am
    Όλα καλά  Όλα καλά
B|--------------------|
G|--0h2-2-2--0h2-2-2--|
 
    G
    Όλα καλά Όλα καλά
B|--------------------|
G|--2h4-4-4--2h4-4-4--|
 
    F        G
    Όλα καλά Όλα καλά
B|--------------------|
G|--4h5-5-5--2h4-4-4--|
 
           Am
   Θα 'ναι όλα καλά
B|---------------|
G|--0-0-0h2-2-2--|
 
 
* (Fill between the refrains)
B|--5--3--1--0-----|
G|--------------2--|
 
Δε μπορώ δε μπορώ να σε βλέπω να μελαγχολείς,
Μ' αγαπάς σ'αγαπώ και γι' αυτό μη μου ανησυχείς.
Για καλό ήταν όλα θα πούμε κι όπως θέλουμε όλα θα 'ρθούνε
νικητές στο τέλος θα βγούμε και...πίστεψέ με...
 
Bridge
Refrain ] 2x
 
Solo:
 Am G
  F G F G F G E
 
Bridge
Refrain ] 2x

<< Povratak