Pesmarica
Akordi za gitaru



Označite pesmu Preuzmite .pdf
Akordi u boji
Promena tonaliteta
AA#B ABH

toto cutugno - l'italiano

toto cutugno

l'italiano

Uvod:
 
1 deo

e--------------------------------------------------------------------------------
B--------------------------------------------------------------------------------
G------------------------------------------------------------9-9-10>12---------10
D-------------------10-------------------------9-9-9-12-10-9----------9-12-10-9--
A-13-13-13-13-12-10----10-10-10-12-13-12-10-10-----------------------------------
E---------------------------------------------------------------------------------

2 deo

e--------------------------------------------------------------------------------
B--------------------------------------------------------------------------------
G-------------------------------------------------------------------9-7-7------
D-------------------10-------------------------9-9-9-12-10-9-9-9-10-----------
A-13-13-13-13-12-10----10-10-10-12-13-12-10-10-----------------------------------
E--------------------------------------------------------------------------------




Lasciatemi cantare  Con la chitarra in mano 
Lasciatemi cantare  Sono un italiano 

Am 
Buongiorno italia gli spaghetti al dente 

E un partigiano come presidente 

Con l'autoradio sempre nella mano destra 
                    E 
E un canarino sopra la finestra 

Buongiorno italia con i tuoi artisti 

Con troppa america sui manifesti 

Con le canzoni con amore 

Con il cuore 
                      Am 
Con piu' donne sempre meno suore 
           C 
Buongiorno Itália 

Buongiorno Maria 
              Am 
Con gli occhi pieni di malinconia 
           E 
Buongiorno dio 
                   Am 
Lo sai che ci sono anch'io 
           Dm 
Lasciatemi cantare 
                   Am 
Con la chitarra in mano 
           E 
Lasciatemi cantare 
                  Am 
Una canzone piano piano 
           Dm 
Lasciatemi cantare 
                Am 
Perche' ne sono fiero 
        E 
Sono un italiano 
                 Am   F 
Un italiano vero 
           Bbm 
Buongiorno italia che non si spaventa 

E con la crema da barba alla menta 

Con un vestito gessato sul blu                 F 
E la moviola la domenica in tv 

Buongiorno italia col caffe' ristretto 

Le calze nuove nel primo cassetto 

Con la bandiera in tintoria 
                 Bbm 
E una 600 giu' di carrozzeria 
           Db 
Buongiorno Itália 

Buongiorno Maria 
              Bbm 
Con gli occhi pieni di malinconia 
           F 
Buongiorno dio 
                   Bbm 
Lo sai che ci sono anch'io 
           Ebm 
Lasciatemi cantare 
                   Bbm 
Con la chitarra in mano 
              F 
Lasciatemi cantare 
                  Bbm 
Una canzone piano piano 
           Ebm 
Lasciatemi cantare 
                Bbm 
Perche' ne sono fiero 
             F 
Sono un italiano 
                 Bbm 
Un italiano vero 

Bbm     Bbm     Ebm     Bbm     F     Bbm 
La la la la la la la la... 
           Ebm 
Lasciatemi cantare 
                   Bbm 
Con la chitarra in mano 
              F 
Lasciatemi cantare 
                  Bbm 
Una canzone piano piano 
              Ebm 
Lasciatemi cantare 
                Bbm 
Perche' ne sono fiero 
             F 
Sono un italiano 
                 Bbm 
Un italiano vero

<< Povratak