Pesmarica
Akordi za gitaru



Označite pesmu Preuzmite .pdf
Akordi u boji
Promena tonaliteta
AA#B ABH

Vasvija Dželatović - Doći Ćeš Znam

Vasvija Dželatović

Doći Ćeš Znam

Vasvija Dzelatovic - Doci Ces Znam
Transkripcija: Johnny035
10.10.2016.

Album: "Kad ga nema" (1993.) - Diskos, Pelex
Muzika & aranzman: Zoran Starcevic
Tekst: Jovica Nedeljkovic

Uvod:
  Dm               Gm        A                A7        Dm
      ___ ___ ___                ___ ___ ___  _____
E|----------------|---------|----------------|---------------|
H|------6-5-------|---------|--------5---5-8-|6/8-5---5-6----|
G|p-7---------7-5-|3--------|----6-7---------|------7--------|
D|----7-----7-----|---------|p-7-------7-----|---------------|
A|----------------|---------|----------------|---------------|
E|----------------|---------|----------------|---------------|

  Dm               Gm        A                       
      ___ ___ ___                 _____ _____ _____  
E|----------------|---------|-----------------------|
H|------6-5-------|---------|-----------17----17-20-|
G|p-7---------7-5-|3--------|-----18-19-------------|
D|----7-----7-----|---------|p-19----------19-------|
A|----------------|---------|-----------------------|
E|----------------|---------|-----------------------|

  A7                      Dm
  _____ _____ _____ _____
E|17/18-15/17-13/15-12/13-10----|
H|------------------------------|
G|------------------------------|
D|------------------------------|
A|------------------------------|
E|------------------------------|

(p-) - pauza osmina

B = Bb

1.(2x)
Dm               Gm      Dm
Jos jedna besana prohuja noc,
C                 A7        Dm
sve sam se nadala da ces mi doc'.
(C                 B  A7     Dm     D7)
(Sve sam se nadala da ces mi doc'.)

Ref.(2x)
Gm                 C7      F
Doci ces, znam, za dan il' dva,
A            A7      Dm  D7(Dm)
opet cu tebe ljubiti ja.

Veza(2x):
|Dm   |Gm   |A    |A7  Dm  |

2.(2x)
Nema te danima, tugujem.
Sama u nocima bolujem.

Ref.(2x)
Doci ces, znam, za dan il' dva,
opet cu tebe ljubiti ja.

Veza(2x):
|Dm   |Gm   |A    |A7  Dm  |

3.(2x)
Molim se zvezdama, ne cuju me.
Sama u suzama cekam te.

Ref.(2x)
Doci ces, znam, za dan il' dva,
opet cu tebe ljubiti ja.

<< Povratak