Pesmarica
Akordi za gitaru



Označite pesmu Preuzmite .pdf
Akordi u boji
Promena tonaliteta
AA#B ABH

Djordje Balasevic - Slovenska

Djordje Balasevic

Slovenska

 ............B7                        Em
 Nosen dahom sna doleteo je crni golub na moj dlan,
              D                    D7     G      E7
 zasto, ko da zna, al to sam jutro docekao umoran,
           Am                        Em
 ko da sam i ja leteo s njim krilima teskim olovnim,
         Am6    B7                     Em
 i video svet sakriven iza zlatnih oblaka.

 
 ..........B7                             Em
 Ako umrem mlad, posadi mi na grobu samo ruzmarin,
            D      D7                   G          E7
 ne dozvoli tad da naprave od toga tuzni treci cin,
           Am                      Em
 nek mi ne drze govore, nek drugom pletu lovore,
           Am6     B7                   Em
 ako umrem mlad, zaustavljen u koraku i snu.


    B7                                Em
 O, zagrli me sad, jako, najbolje sto znas,
   B7                       Em B7 Em E7
 i nemoj crnoj ptici da me das,
    Am        Am6   Em          Em7
 ma ne, ne brini,   proci ce za tren,
        Em6       B7            Em
 ja sam samo malo lud i zaljubljen.
   B7                  Em
 U mojim venama tamni sever samuje,
   B7                        Em B7 Em E7                         
 i ja ponekad ne znam sta mu je,
     Am  Am6    Em         Em7
 sto luduje, od srece tugu tka,
       Em6    B7          Em         C         B/3        G/5    
  moja prosta dusa slovenska.                           
                         --/7----7---8---8-7-8|6/7--------7---------|
                         ----5-8--------------|----7----7--------787|
                         ---------------------|---------------------|
                         ---------------------|---------------------|
                         ---------------------|---------------------|
                         ---------------------|---------------------|
 A/3     Am/3          D         G/4-----/3       F#m7-5   B7         Em
----------------------|-----------------|-----------------|-------------
-5-----5/10---------h-|7----------------|-----------------|-------------
--------------------79|----7/9-7--5---75|4----------------|-------------
-------------7-9-10---|-----------------|--4/5-7-7/9--10-9|7------------
----------------------|-----------------|-----------------|-------10-9-7
----------------------|-----------------|-----------------|-------------
 ..........B7                              Em
 Uplasi me sjaj, milion sveca kad se nebom upali,
             D                    D7          G      E7
 gde je tome kraj, za kog su tako dubok zdenac kopali,
          Am                        Em
 zasto se sve to desava, da l covek ista resava,
             Am6      B7                   Em
 il smo samo tu zbog ravnoteze medju zvezdama.

refren 
       Em6    B7          Em            
  moja prosta dusa slovenska. x2



<< Povratak