Pesmarica
Akordi za gitaru



Označite pesmu Preuzmite .pdf
Akordi u boji
Promena tonaliteta
AA#B ABH

Dragon Ball GT

Bit by bit

Riff 1:
C                       G
Bit by bit, I’m falling under your spell,
Am                           Em             F
Your smile’s all I need to see to know we’ll

                    Em      Am
Leave this endless darkness, saying,
Dm                  G             G#  A#  C  (Riff 2)
“Come along with me!" Hold my hand

Fm            Bb                 Gm
Back when you first came into my life,
             Cm                     Fm
I recalled a place that I knew as a child:
              G             Cm               D#
a special place, one that I held close to my heart
          G#              Bb                   Gm
Won’t you lead me in a dance down this winding road,
                Cm                     Fm
Where light and shadow entwine to take hold
          G              Cm           D#
of the thoughts of the one left far behind?
     G#                        Bb
Know that sometimes, I want to turn
                   Gm
around and see the things that
                   Cm
I’ve passed on the journey,
                   F
But know with love on my side,
       A#
 with courage and pride,
      G                    (Riff 1)
I’ll fight; I will carry on

C                       G
Bit by bit, I’m falling under your charm,
Am                           Em               F
You’ll keep me and all the world far from harm
                    Em      Am             E     G
Bring hope to everyone; take in your hands eternity
C                      G
Even when it seems that I don’t need you,
Am                     Em
Just know that I am in love; can’t wait to
F                 Dm                   G                           G#  A#  C (riff 2)
Leave this endless darkness. Won’t you come along with me? Hold my hand

Riff 1:

E|--3-3-----3-5-3-----------------------------------5-3----------------------------|
B|------5-6-------6-5----5-5-----5-6-5----------------------3-5-6-5-3---5-6-3------|
G|---------------------7-----5-7--------7-5-4-2-2-5-------5-----------5------------| (x2)
D|---------------------------------------------------------------------------------|
A|---------------------------------------------------------------------------------|
E|---------------------------------------------------------------------------------|


Riff 2:

E|--------------------|------------------|----------------------------|
B|--------------------|--9-10------------|--11--9-10------------------|
G|-0----0---0---0---0-|-------10--8-7-8--|------------10-8-10-10/12~--|
D|--------3---2---0---|------------------|----------------------------|
A|--------------------|------------------|----------------------------|
E|--------------------|------------------|----------------------------|

<< Povratak