Pesmarica
Akordi za gitaru



Označite pesmu Preuzmite .pdf
Akordi u boji
Promena tonaliteta
AA#B ABH

Bjelo dugme

Djurdjevdan

e|-----------------------------------------------|
B|-----------------------------------------------|
G|-----------------------------------------------|
D|9-10-12-10-9-777-9-7------------------|
A|---------------------            10------------------------|
E|-----------------------------------------------|

e|-----------------------------------------------|
B|-----------------------------------------------|
G|--777-5-7-5------------------------------------|    2x
D|10----------9-----------------                 | 
A|--------------------------------------------|
E|-----------------------------------------------|

e|-----------------------------------------|
B|-----------------------------------------------|
G|-----------------------------------------------|
D|10-9/12-9-77----------------------------|
A|---------------------------------|
E|-----------------------------------------------|


e|-----------------------------------------------|
B|-----------------------------------------------|
G|9-11-12-11-9-5-5-7---5-----------------------------|
D|--------------------- 10------|
A|-----------------------------------------------|
E|-----------------------------------------------|

e|-----------------------------------------------|
B|-----------------------------------------------|
G|--777-5-7-5------------------------------------|    2x
D|10----------9-----------------                 | 
A|--------------------------------------------|


e|-----------------------------------------------|
B|-----------------------------------------------|
G|-----------------------------------------------|
D|10-9/12-9-77----------------------------|
A|---------------------------------|
E|-----------------------------------------------|

e|------------------------------------------------------------|
B|------------------------------------------------------------|
G|9-12-11-9-7-7-5-7--|
D|------------------10-|
A|--------------------------------------------|
E|-----------------------------------------------|


e|-----------------------------------------------|
B|-----------------------------------------------|
G|--777-5-7-5------------------------------------|    2x
D|10----------9-----------------                 | 
A|--------------------------------------------|
E|-----------------------------------------------|

e|-----------------------------------------------|
B|-----------------------------------------------|
G|-----------------------------------------------|
D|10-9/12-9-77----------------------------|
A|---------------------------------|
E|-----------------------------------------------|



REFREN :




e|-----------------------------------------------|
B|-----------------------------------------------|
G|7/9-9-7-5/7--------------------------------------------|
D|-----------------------------------------|
A|---------------------------------------|
E|-------------------------------------------|


e|-----------------------------------------------|
B|-----------------------------------------------|
G|55-99-7-5-4-2-----------------------------------------|
D|-----------------------------------------|
A|---------------------------------------|
E|-------------------------------------------|



e|-----------------------------------------------|
B|-----------------------------------------------|
G|55-4-5-99-7------------------------------------------|
D|-----------------------------------------|
A|---------------------------------------|
E|-------------------------------------------|

e|-----------------------------------------------|
B|-----------------------------------------------|
G|55-99-7-5-4-2-----------------------------------------|
D|-----------------------------------------|
A|---------------------------------------|
E|-------------------------------------------|


e|-----------------------------------------------|
B|-----------------------------------------------|
G|9/11-11-9-7/9-------------------------------------------|
D|-----------------------------------------|
A|---------------------------------------|
E|-------------------------------------------|



e|-----------------------------------------------|
B|-----------------------------------------------|
G|9-7-6-4-------------------------------------------|
D|-----------------------------------------|            2x
A|---------------------------------------|
E|-------------------------------------------|



e|-----------------------------------------------|
B|-----------------------------------------------|
G|--------------------------------------|
D|10-9/12-9-7---7-----------------------------------|
A|---------------------------------------|
E|-------------------------------------------|



e|-----------------------------------------------|
B|-----------------------------------------------|
G|7/9-10-9-7-5-5/7-5-4--------------------------------------|
D|-----------------------------------------|
A|---------------------------------------|
E|-------------------------------------------|

e|-----------------------------------------------|
B|-----------------------------------------------|
G|--777-5-7-5------------------------------------|    2x
D|10----------9-----------------                 | 
A|--------------------------------------------|
E|-----------------------------------------------|

e|-----------------------------------------------|
B|-----------------------------------------------|
G|10-11-13-11-10-8---6-4----------------------------------------|
D|-----------------------------------------|
A|---------------------------------------|
E|-------------------------------------------|



e|-----------------------------------------------|
B|-----------------------------------------------|
G|4-666-4-6-4-------------------------------------------|      2x
D|-------------8----------------------------|
A|---------------------------------------|
E|-------------------------------------------|

e|-----------------------------------------------|
B|-----------------------------------------------|
G|-----------------------------------------------|
D|10-9/12-9-77----------------------------|
A|---------------------------------|
E|-----------------------------------------------|




REFREN :





e|-----------------------------------------------|
B|-----------------------------------------------|
G|7/9-9-7-5/7--------------------------------------------|
D|-----------------------------------------|
A|---------------------------------------|
E|-------------------------------------------|


e|-----------------------------------------------|
B|-----------------------------------------------|
G|55-99-7-5-4-2-----------------------------------------|
D|-----------------------------------------|
A|---------------------------------------|
E|-------------------------------------------|



e|-----------------------------------------------|
B|-----------------------------------------------|
G|55-4-5-99-7------------------------------------------|
D|-----------------------------------------|
A|---------------------------------------|
E|-------------------------------------------|

e|-----------------------------------------------|
B|-----------------------------------------------|
G|55-99-7-5-4-2-----------------------------------------|
D|-----------------------------------------|
A|---------------------------------------|
E|-------------------------------------------|


e|-----------------------------------------------|
B|-----------------------------------------------|
G|9/11-11-9-7/9-------------------------------------------|
D|-----------------------------------------|
A|---------------------------------------|
E|-------------------------------------------|



e|-----------------------------------------------|
B|-----------------------------------------------|
G|9-7-6-4-------------------------------------------|
D|-----------------------------------------|            2x
A|---------------------------------------|
E|-------------------------------------------|



e|-----------------------------------------------|
B|-----------------------------------------------|
G|--------------------------------------|
D|10-9/12-9-7---7-----------------------------------|
A|---------------------------------------|
E|-------------------------------------------|

: LAKI


<< Povratak