Pesmarica
Akordi za gitaru



Označite pesmu Preuzmite .pdf
Akordi u boji
Promena tonaliteta
AA#B ABH

Ceca

Lepotan

SOLO:ovo je pojednostavljen solo al nije los
Cm           Fm           A#                 Cm
-------------11-13-13-13--11--10-11-13-10-------------------------
11-13-13-13-------------------------------13-13--13-13-11-10-11-13
------------------------------------------------------------------
------------------------------------------------------------------
------------------------------------------------------------------
------------------------------------------------------------------
Cm          Fm          A#             Cm
------------------------------------------------------------------
------------------------------------------------------------------
------------8-10-10-10--8--7-8-10-7-------------------------------
8-10-10-10--------------------------10-10--10-10-8-7-8-10---------
------------------------------------------------------------------
------------------------------------------------------------------
1STROFA:2X
Cm
Otkad te sretoh ja nemam mira
Fm
lepota tvoja mene opija
Cm
a ti ne zelis da vidis to
A#       G#      Cm
jer imas ljubavi sto
-------------
-------------
5--5-------5-
-----8-7-8---
-------------
-------------
REFREN:2X
Dm
Zbog takvog zivota tvog
F       C     F
moji se snovi ruse
Gm             Dm
i mrzim lepotu tvoju
C               A#        C Dm
jer nemas srca, jer nemas duse
---------------
---------------
7--7---------7-
-----10-9-10---
---------------
---------------
ovo mozete ubaciti
a i ne morate
SOLO:
2STROFA:2X
Cm
Tebi je lako kada te vole
Fm
sada te mnoge za ljubav mole
Cm
al znaj ti dobro doci ce dan
A#       G#     Cm
kada ces ostati sam
-------------
-------------
5--5-------5-
-----8-7-8---
-------------
-------------
REFREN:2X
SOLO:
3STROFA:2X
Cm
Ti nisi nikad zaljubljen bio
Fm
ti nisi nikad suzu prolio
Cm
ti ne znas sta je ljubavni bol
A#        G#    Cm
prazan je zivot moj
-------------
-------------
5--5-------5-
-----8-7-8---
-------------
-------------

<< Povratak